ISO-10303-21;
HEADER;
FILE_DESCRIPTION (( 'STEP AP203' ),
    '1' );
FILE_NAME ('QB-CTZHWP-38.1-894-M.STEP',
    '2020-12-24T01:37:57',
    ( '' ),
    ( '' ),
    'SwSTEP 2.0',
    'SolidWorks 2020',
    '' );
FILE_SCHEMA (( 'CONFIG_CONTROL_DESIGN' ));
ENDSEC;

DATA;
#1 = AXIS2_PLACEMENT_3D ( 'NONE', #126, #162, #58 ) ;
#2 = CALENDAR_DATE ( 2020, 24, 12 ) ;
#3 = VERTEX_POINT ( 'NONE', #78 ) ;
#4 = DATE_AND_TIME ( #16, #150 ) ;
#5 = FACE_OUTER_BOUND ( 'NONE', #62, .T. ) ;
#6 = EDGE_CURVE ( 'NONE', #17, #156, #59, .T. ) ;
#7 = ORIENTED_EDGE ( 'NONE', *, *, #127, .F. ) ;
#8 = PERSON_AND_ORGANIZATION_ROLE ( 'design_owner' ) ;
#9 = SHAPE_DEFINITION_REPRESENTATION ( #25, #31 ) ;
#10 = ADVANCED_FACE ( 'NONE', ( #118 ), #152, .F. ) ;
#11 = CYLINDRICAL_SURFACE ( 'NONE', #151, 25.39999999999999858 ) ;
#12 = UNCERTAINTY_MEASURE_WITH_UNIT (LENGTH_MEASURE( 1.000000000000000082E-05 ), #147, 'distance_accuracy_value', 'NONE');
#13 = APPROVAL_PERSON_ORGANIZATION ( #122, #170, #56 ) ;
#14 = CIRCLE ( 'NONE', #73, 25.39999999999999858 ) ;
#15 = CIRCLE ( 'NONE', #49, 25.39999999999999858 ) ;
#16 = CALENDAR_DATE ( 2020, 24, 12 ) ;
#17 = VERTEX_POINT ( 'NONE', #125 ) ;
#18 = PERSON_AND_ORGANIZATION ( #60, #133 ) ;
#19 = CARTESIAN_POINT ( 'NONE',  ( -3.000000000000001332, 19.05000000000000071, 0.000000000000000000 ) ) ;
#20 = APPLICATION_PROTOCOL_DEFINITION ( 'international standard', 'config_control_design', 1994, #139 ) ;
#21 = DIRECTION ( 'NONE',  ( 0.000000000000000000, 0.000000000000000000, 1.000000000000000000 ) ) ;
#22 = CC_DESIGN_DATE_AND_TIME_ASSIGNMENT ( #4, #116, ( #85 ) ) ;
#23 = DATE_TIME_ROLE ( 'classification_date' ) ;
#24 = ADVANCED_FACE ( 'NONE', ( #97 ), #111, .T. ) ;
#25 = PRODUCT_DEFINITION_SHAPE ( 'NONE', 'NONE',  #85 ) ;
#26 = DIRECTION ( 'NONE',  ( -1.000000000000000000, -0.000000000000000000, -0.000000000000000000 ) ) ;
#27 = CARTESIAN_POINT ( 'NONE',  ( 3.000000000000001332, 19.05000000000000071, 0.000000000000000000 ) ) ;
#28 = CC_DESIGN_APPROVAL ( #158, ( #175 ) ) ;
#29 = AXIS2_PLACEMENT_3D ( 'NONE', #79, #65, #131 ) ;
#30 = AXIS2_PLACEMENT_3D ( 'NONE', #52, #159, #146 ) ;
#31 = ADVANCED_BREP_SHAPE_REPRESENTATION ( 'QB-CTZHWP-38.1-894-M', ( #120, #30 ), #101 ) ;
#32 = SECURITY_CLASSIFICATION_LEVEL ( 'unclassified' ) ;
#33 = DATE_AND_TIME ( #166, #167 ) ;
#34 = ORIENTED_EDGE ( 'NONE', *, *, #6, .T. ) ;
#35 = DESIGN_CONTEXT ( 'detailed design', #74, 'design' ) ;
#36 = DIRECTION ( 'NONE',  ( 1.000000000000000000, 0.000000000000000000, 0.000000000000000000 ) ) ;
#37 = CC_DESIGN_PERSON_AND_ORGANIZATION_ASSIGNMENT ( #102, #154, ( #175 ) ) ;
#38 = SECURITY_CLASSIFICATION ( '', '', #32 ) ;
#39 = CC_DESIGN_APPROVAL ( #71, ( #85 ) ) ;
#40 = VECTOR ( 'NONE', #42, 1000.000000000000000 ) ;
#41 = EDGE_CURVE ( 'NONE', #3, #51, #15, .T. ) ;
#42 = DIRECTION ( 'NONE',  ( -1.000000000000000000, -0.000000000000000000, -0.000000000000000000 ) ) ;
#43 = CARTESIAN_POINT ( 'NONE',  ( -3.000000000000000000, 3.110602869834276865E-15, -25.39999999999999858 ) ) ;
#44 = EDGE_CURVE ( 'NONE', #51, #3, #14, .T. ) ;
#45 = APPROVAL_STATUS ( 'not_yet_approved' ) ;
#46 = EDGE_LOOP ( 'NONE', ( #115, #90 ) ) ;
#47 = APPLICATION_PROTOCOL_DEFINITION ( 'international standard', 'config_control_design', 1994, #74 ) ;
#48 = CARTESIAN_POINT ( 'NONE',  ( -1.614212418857619014, 0.000000000000000000, 0.000000000000000000 ) ) ;
#49 = AXIS2_PLACEMENT_3D ( 'NONE', #149, #110, #173 ) ;
#50 = ORIENTED_EDGE ( 'NONE', *, *, #123, .T. ) ;
#51 = VERTEX_POINT ( 'NONE', #43 ) ;
#52 = CARTESIAN_POINT ( 'NONE',  ( 0.000000000000000000, 0.000000000000000000, 0.000000000000000000 ) ) ;
#53 = PRODUCT_RELATED_PRODUCT_CATEGORY ( 'detail', '', ( #98 ) ) ;
#54 = LOCAL_TIME ( 9, 37, 57.00000000000000000, #63 ) ;
#55 = CALENDAR_DATE ( 2020, 24, 12 ) ;
#56 = APPROVAL_ROLE ( '' ) ;
#57 = CARTESIAN_POINT ( 'NONE',  ( -3.000000000000000000, 0.000000000000000000, 0.000000000000000000 ) ) ;
#58 = DIRECTION ( 'NONE',  ( 0.000000000000000000, 0.000000000000000000, 1.000000000000000000 ) ) ;
#59 = CIRCLE ( 'NONE', #29, 25.39999999999999858 ) ;
#60 = PERSON ( 'UNSPECIFIED', 'UNSPECIFIED', 'UNSPECIFIED', ('UNSPECIFIED'), ('UNSPECIFIED'), ('UNSPECIFIED') ) ;
#61 = APPROVAL_DATE_TIME ( #105, #158 ) ;
#62 = EDGE_LOOP ( 'NONE', ( #106, #119 ) ) ;
#63 = COORDINATED_UNIVERSAL_TIME_OFFSET ( 8, 0, .AHEAD. ) ;
#64 = DIRECTION ( 'NONE',  ( 0.000000000000000000, 0.000000000000000000, -1.000000000000000000 ) ) ;
#65 = DIRECTION ( 'NONE',  ( -1.000000000000000000, -0.000000000000000000, -0.000000000000000000 ) ) ;
#66 =( NAMED_UNIT ( * ) PLANE_ANGLE_UNIT ( ) SI_UNIT ( $, .RADIAN. ) );
#67 = COORDINATED_UNIVERSAL_TIME_OFFSET ( 8, 0, .AHEAD. ) ;
#68 = CLOSED_SHELL ( 'NONE', ( #24, #10, #145, #153 ) ) ;
#69 = CALENDAR_DATE ( 2020, 24, 12 ) ;
#70 = DIRECTION ( 'NONE',  ( -0.000000000000000000, 0.000000000000000000, 1.000000000000000000 ) ) ;
#71 = APPROVAL ( #45, 'UNSPECIFIED' ) ;
#72 = DIRECTION ( 'NONE',  ( 0.000000000000000000, 0.000000000000000000, 1.000000000000000000 ) ) ;
#73 = AXIS2_PLACEMENT_3D ( 'NONE', #57, #161, #72 ) ;
#74 = APPLICATION_CONTEXT ( 'configuration controlled 3d designs of mechanical parts and assemblies' ) ;
#75 = PERSON_AND_ORGANIZATION ( #60, #133 ) ;
#76 = ORIENTED_EDGE ( 'NONE', *, *, #44, .F. ) ;
#77 = PERSON_AND_ORGANIZATION_ROLE ( 'creator' ) ;
#78 = CARTESIAN_POINT ( 'NONE',  ( -3.000000000000000000, 0.000000000000000000, 25.39999999999999858 ) ) ;
#79 = CARTESIAN_POINT ( 'NONE',  ( 3.000000000000000000, 0.000000000000000000, 0.000000000000000000 ) ) ;
#80 = MECHANICAL_CONTEXT ( 'NONE', #139, 'mechanical' ) ;
#81 = CC_DESIGN_APPROVAL ( #170, ( #38 ) ) ;
#82 = AXIS2_PLACEMENT_3D ( 'NONE', #19, #36, #64 ) ;
#83 = APPROVAL_STATUS ( 'not_yet_approved' ) ;
#84 = AXIS2_PLACEMENT_3D ( 'NONE', #27, #174, #70 ) ;
#85 = PRODUCT_DEFINITION ( 'UNKNOWN', '', #175, #35 ) ;
#86 = LINE ( 'NONE', #100, #40 ) ;
#87 = LINE ( 'NONE', #140, #109 ) ;
#88 = APPROVAL_STATUS ( 'not_yet_approved' ) ;
#89 = PERSON_AND_ORGANIZATION ( #60, #133 ) ;
#90 = ORIENTED_EDGE ( 'NONE', *, *, #6, .F. ) ;
#91 = CARTESIAN_POINT ( 'NONE',  ( 3.000000000000000000, 0.000000000000000000, 0.000000000000000000 ) ) ;
#92 = CC_DESIGN_PERSON_AND_ORGANIZATION_ASSIGNMENT ( #164, #114, ( #175 ) ) ;
#93 = ORIENTED_EDGE ( 'NONE', *, *, #41, .F. ) ;
#94 = APPROVAL_PERSON_ORGANIZATION ( #75, #158, #142 ) ;
#95 = CIRCLE ( 'NONE', #172, 25.39999999999999858 ) ;
#96 = PERSON_AND_ORGANIZATION_ROLE ( 'classification_officer' ) ;
#97 = FACE_OUTER_BOUND ( 'NONE', #108, .T. ) ;
#98 = PRODUCT ( 'QB-CTZHWP-38.1-894-M', 'QB-CTZHWP-38.1-894-M', '', ( #80 ) ) ;
#99 = LOCAL_TIME ( 9, 37, 57.00000000000000000, #171 ) ;
#100 = CARTESIAN_POINT ( 'NONE',  ( -1.614212418857619014, 0.000000000000000000, 25.39999999999999858 ) ) ;
#101 =( GEOMETRIC_REPRESENTATION_CONTEXT ( 3 ) GLOBAL_UNCERTAINTY_ASSIGNED_CONTEXT ( ( #12 ) ) GLOBAL_UNIT_ASSIGNED_CONTEXT ( ( #147, #66, #135 ) ) REPRESENTATION_CONTEXT ( 'NONE', 'WORKASPACE' ) );
#102 = PERSON_AND_ORGANIZATION ( #60, #133 ) ;
#103 = COORDINATED_UNIVERSAL_TIME_OFFSET ( 8, 0, .AHEAD. ) ;
#104 = EDGE_LOOP ( 'NONE', ( #7, #34, #50, #76 ) ) ;
#105 = DATE_AND_TIME ( #2, #54 ) ;
#106 = ORIENTED_EDGE ( 'NONE', *, *, #41, .T. ) ;
#107 = DIRECTION ( 'NONE',  ( 0.000000000000000000, 0.000000000000000000, 1.000000000000000000 ) ) ;
#108 = EDGE_LOOP ( 'NONE', ( #143, #168, #93, #165 ) ) ;
#109 = VECTOR ( 'NONE', #26, 1000.000000000000000 ) ;
#110 = DIRECTION ( 'NONE',  ( -1.000000000000000000, -0.000000000000000000, -0.000000000000000000 ) ) ;
#111 = CYLINDRICAL_SURFACE ( 'NONE', #1, 25.39999999999999858 ) ;
#112 = CC_DESIGN_PERSON_AND_ORGANIZATION_ASSIGNMENT ( #134, #8, ( #98 ) ) ;
#113 = LOCAL_TIME ( 9, 37, 57.00000000000000000, #67 ) ;
#114 = PERSON_AND_ORGANIZATION_ROLE ( 'creator' ) ;
#115 = ORIENTED_EDGE ( 'NONE', *, *, #163, .F. ) ;
#116 = DATE_TIME_ROLE ( 'creation_date' ) ;
#117 = PLANE ( 'NONE',  #82 ) ;
#118 = FACE_OUTER_BOUND ( 'NONE', #46, .T. ) ;
#119 = ORIENTED_EDGE ( 'NONE', *, *, #44, .T. ) ;
#120 = MANIFOLD_SOLID_BREP ( 'Ðý×', #68 ) ;
#121 = CC_DESIGN_DATE_AND_TIME_ASSIGNMENT ( #148, #23, ( #38 ) ) ;
#122 = PERSON_AND_ORGANIZATION ( #60, #133 ) ;
#123 = EDGE_CURVE ( 'NONE', #156, #3, #86, .T. ) ;
#124 = APPROVAL_PERSON_ORGANIZATION ( #18, #71, #155 ) ;
#125 = CARTESIAN_POINT ( 'NONE',  ( 3.000000000000000000, 3.110602869834276865E-15, -25.39999999999999858 ) ) ;
#126 = CARTESIAN_POINT ( 'NONE',  ( -1.614212418857619014, 0.000000000000000000, 0.000000000000000000 ) ) ;
#127 = EDGE_CURVE ( 'NONE', #17, #51, #87, .T. ) ;
#128 = APPROVAL_DATE_TIME ( #33, #71 ) ;
#129 = COORDINATED_UNIVERSAL_TIME_OFFSET ( 8, 0, .AHEAD. ) ;
#130 = DIRECTION ( 'NONE',  ( -1.000000000000000000, -0.000000000000000000, -0.000000000000000000 ) ) ;
#131 = DIRECTION ( 'NONE',  ( 0.000000000000000000, 0.000000000000000000, 1.000000000000000000 ) ) ;
#132 = CC_DESIGN_PERSON_AND_ORGANIZATION_ASSIGNMENT ( #89, #77, ( #85 ) ) ;
#133 = ORGANIZATION ( 'UNSPECIFIED', 'UNSPECIFIED', '' ) ;
#134 = PERSON_AND_ORGANIZATION ( #60, #133 ) ;
#135 =( NAMED_UNIT ( * ) SI_UNIT ( $, .STERADIAN. ) SOLID_ANGLE_UNIT ( ) );
#136 = APPROVAL_DATE_TIME ( #137, #170 ) ;
#137 = DATE_AND_TIME ( #55, #99 ) ;
#138 = FACE_OUTER_BOUND ( 'NONE', #104, .T. ) ;
#139 = APPLICATION_CONTEXT ( 'configuration controlled 3d designs of mechanical parts and assemblies' ) ;
#140 = CARTESIAN_POINT ( 'NONE',  ( -1.614212418857619014, 3.110602869834276865E-15, -25.39999999999999858 ) ) ;
#141 = PERSON_AND_ORGANIZATION ( #60, #133 ) ;
#142 = APPROVAL_ROLE ( '' ) ;
#143 = ORIENTED_EDGE ( 'NONE', *, *, #163, .T. ) ;
#144 = DIRECTION ( 'NONE',  ( -1.000000000000000000, -0.000000000000000000, -0.000000000000000000 ) ) ;
#145 = ADVANCED_FACE ( 'NONE', ( #138 ), #11, .T. ) ;
#146 = DIRECTION ( 'NONE',  ( 1.000000000000000000, 0.000000000000000000, 0.000000000000000000 ) ) ;
#147 =( LENGTH_UNIT ( ) NAMED_UNIT ( * ) SI_UNIT ( .MILLI., .METRE. ) );
#148 = DATE_AND_TIME ( #69, #113 ) ;
#149 = CARTESIAN_POINT ( 'NONE',  ( -3.000000000000000000, 0.000000000000000000, 0.000000000000000000 ) ) ;
#150 = LOCAL_TIME ( 9, 37, 57.00000000000000000, #129 ) ;
#151 = AXIS2_PLACEMENT_3D ( 'NONE', #48, #144, #107 ) ;
#152 = PLANE ( 'NONE',  #84 ) ;
#153 = ADVANCED_FACE ( 'NONE', ( #5 ), #117, .F. ) ;
#154 = PERSON_AND_ORGANIZATION_ROLE ( 'design_supplier' ) ;
#155 = APPROVAL_ROLE ( '' ) ;
#156 = VERTEX_POINT ( 'NONE', #157 ) ;
#157 = CARTESIAN_POINT ( 'NONE',  ( 3.000000000000000000, 0.000000000000000000, 25.39999999999999858 ) ) ;
#158 = APPROVAL ( #88, 'UNSPECIFIED' ) ;
#159 = DIRECTION ( 'NONE',  ( 0.000000000000000000, 0.000000000000000000, 1.000000000000000000 ) ) ;
#160 = CC_DESIGN_PERSON_AND_ORGANIZATION_ASSIGNMENT ( #141, #96, ( #38 ) ) ;
#161 = DIRECTION ( 'NONE',  ( -1.000000000000000000, -0.000000000000000000, -0.000000000000000000 ) ) ;
#162 = DIRECTION ( 'NONE',  ( -1.000000000000000000, -0.000000000000000000, -0.000000000000000000 ) ) ;
#163 = EDGE_CURVE ( 'NONE', #156, #17, #95, .T. ) ;
#164 = PERSON_AND_ORGANIZATION ( #60, #133 ) ;
#165 = ORIENTED_EDGE ( 'NONE', *, *, #123, .F. ) ;
#166 = CALENDAR_DATE ( 2020, 24, 12 ) ;
#167 = LOCAL_TIME ( 9, 37, 57.00000000000000000, #103 ) ;
#168 = ORIENTED_EDGE ( 'NONE', *, *, #127, .T. ) ;
#169 = CC_DESIGN_SECURITY_CLASSIFICATION ( #38, ( #175 ) ) ;
#170 = APPROVAL ( #83, 'UNSPECIFIED' ) ;
#171 = COORDINATED_UNIVERSAL_TIME_OFFSET ( 8, 0, .AHEAD. ) ;
#172 = AXIS2_PLACEMENT_3D ( 'NONE', #91, #130, #21 ) ;
#173 = DIRECTION ( 'NONE',  ( 0.000000000000000000, 0.000000000000000000, 1.000000000000000000 ) ) ;
#174 = DIRECTION ( 'NONE',  ( -1.000000000000000000, 0.000000000000000000, -0.000000000000000000 ) ) ;
#175 = PRODUCT_DEFINITION_FORMATION_WITH_SPECIFIED_SOURCE ( 'ANY', '', #98, .NOT_KNOWN. ) ;
ENDSEC;
END-ISO-10303-21;
